Ek Pal Ka Jeena Guitar Intro – Kaho Naa Payaar Hai

    Rate Me: 1 Star2 Stars3 Stars4 Stars5 Stars (Rating: 2.50)
    Loading...
    ▼ Song Details
    Difficulty:
    Singer:
    Movie:
    Composer:
    Lyricist:

    ▼ Show Video

    Credit: Guitar Hub
    Continue reading, Chords and Lyrics are given below.
    Tuning: Standard(E-A-D-G-B-e)
    Capo: 2nd Fret

    Ek Pal Ka Jeena Guitar Intro

    NOTE: The tabs mentioned below are with respect to capo on 2nd fret.

    e|----------------------|
    B|----------------------|
    G|--2h4--4-4\5/4-4-4-4--|[x3]
    D|----------------------|
    A|----------------------|
    E|----------------------|
    
    e|------------------|
    B|---------3--------|
    G|--2h4--4---4-4-4--|
    D|------------------|
    A|------------------|
    E|------------------|
    

    Now the same above tabs with Strumming.
    Strumming Pattern: DDU UDU

    e|----------------------|
    B|----------------------|
    G|--2h4--4-4\5/4-4-4-4--|[x3]
    D|----------------------|
    A|----------------------|
    E|----------------------|
    
    e|------------------|
    B|---------3--------|
    G|--2h4--4---4-4-4--|
    D|------------------|
    A|------------------|
    E|------------------|