Cadbury Shubh Aarambh Guitar Tabs

    Rate Me: 1 Star2 Stars3 Stars4 Stars5 Stars (Rating: 4.00)
    Loading...
    ▼ Song Details
    Difficulty: ,
    Composer:

    Tuning: Standard(E-A-D-G-B-e)
    Capo: None

    Cadbury Shubh Aarambh Guitar Tabs Progression

    Easy version.

    e|--8-6-8---4----6-4-6-------------------------6------|
    B|-------------------------8---6-8-9-4----8-9-----8---|
    G|----------------------------------------------------|
    D|----------------------------------------------------|
    A|----------------------------------------------------|
    E|----------------------------------------------------|
    

    Intermediate version.

    e|--8p6-8---4----6p4-6----------------------6--------|
    B|----------------------8---6--8/9-4----8/9-----8----|
    G|---------------------------------------------------|
    D|---------------------------------------------------|
    A|---------------------------------------------------|
    E|---------------------------------------------------|